"Little Walter Rides Again" Chords?

SFT

Member
Messages
722
Anyone know the chords during the bridge in the Medeski Scofield Martin and Wood song?
 

Clifford-D

Member
Messages
17,045
Here's a bit, maybe I'll transcribe more later :)
Bb7
|-----------------------------|---------------|-|
|-----------------------------|----9---8-8--6-|-|
|-----------------------------|----10--8-8--7-|-|
|---8-8-8---6-6-6---8-8-8-6---|---------------|-|
|-----------------------------|---------------|-|
|-----------------------------|---------------|-|
 

SFT

Member
Messages
722
Thanks! I got most of the tune figured out, I just need those quick chord changes in the bridge section that starts out Db Ab.....
 

Clifford-D

Member
Messages
17,045
Here's a shot at it

Those are hammers on bars 3,4 &7
maybe a little sliding on F chord in 3rd bar.

|------------|---4-3---|----------|----------|
|---4--4-4-4-|-4-4-4-4-|-6-6--6---|--6----8--|
|---6--6-6-6-|-5-5-3-5-|-5-5--6-7-|--6-7--8--|
|---6--6-6-6-|-6---5-6-|-7-7--8---|--8----8--|
|------------|---------|----------|----------|
|------------|---------|----------|----------|

|------------|----------|-------------|---------|-|
|---4--4-4-4-|-6-6--6-6-|-6---6---8-8-|-10------|-|
|---5--5-5-5-|-6-6--5-5-|-6-7-6-7-8-8-|-10------|-|
|---6--6-6-6-|-6-6--7-7-|-8---8---8-8-|-10------|-|
|------------|-4-4------|-------------|---------|-|
|------------|----------|-------------|---------|-|

Cool, now I have a new tune
 
Last edited:

blhm84

Member
Messages
642
Not to hijack the thread, but I was wondering if someone knew the chords at for the intro of "Jeep on 35". You know, the acoustic part. I figured it would be ok in this thread since it's a Scofield tune.
 

bloo

Member
Messages
297
Jeep on 35 is a A9/D13/Em7 I'm pretty sure. Used to play that one with my band and we don't anymore...I think it's time to break that one back out. Any other questions about it let me know.
 

blhm84

Member
Messages
642
Thanks a lot, that one's been tricky. I figured out all the lead lines, but for some reason those chords were just not coming to me.
 




Trending Topics

Top Bottom