Mama Said - Kravitz and Slash

Discussion in 'Playing and Technique' started by rastaman, Aug 15, 2008.

  1. rastaman

    rastaman Member

    Messages:
    2,102
    Joined:
    Mar 28, 2005
    Location:
    Georgia
    Does anyone have access to - Mama Said - Kravitz and Slash tab??
     
  2. Clifford-D

    Clifford-D Member

    Messages:
    17,112
    Joined:
    Jan 8, 2007
    Location:
    Close to the burn zone
    Try this

    http://www.youtube.com/watch?v=oFpws1B48Oo

    E
    |------------------------|-------------------------------|---|
    |------------------------|-------------------------------|---|
    |------------------------|-------------------------------|---|
    |-------2-0---0---2-5--2-|-----2-0---0------0------------|---|
    |-----------4------------|---------4-----(2)--2-----0-2--|---|
    |---0--------------------|-0--------------------3--------|-0-|
     
  3. buddastrat

    buddastrat Member

    Messages:
    14,732
    Joined:
    Mar 20, 2005
    While those are the notes, position is real important for that funky feel. That's a badass riff. Try it this way:

    E--------------------|-------------------------

    B --------------------------------------------------------------

    G -----------------------------------------------------------------

    D -------------------------5p0------------------------------------0h2---

    A ---------7---5p4---5-----------7(vib)-----7-5p4----5--5-5p2-----------

    E ------0----------0-----0-----0-------0-----------0----------3p0-------
     
  4. rastaman

    rastaman Member

    Messages:
    2,102
    Joined:
    Mar 28, 2005
    Location:
    Georgia
    Cool! Thanks! I'll try it.
     
  5. SouthernShred

    SouthernShred Silver Supporting Member

    Messages:
    3,549
    Joined:
    Jan 7, 2003
    Location:
    Lawrenceville, GA
    THe song is "Always On The Run"

    buddastrat's tab is correct...love that tune
     
  6. Clifford-D

    Clifford-D Member

    Messages:
    17,112
    Joined:
    Jan 8, 2007
    Location:
    Close to the burn zone
    The little part that I transcribed is between 5 thru 10 seconds into it.
    So I didn't transcribe the first time thru. I do feel it's correct note wise,
    a little hard to hear.
    fingering was wrong, but it still phrases ok. I wasn't looking at the video.

    Are we talking about different sections? Or recordings, Slashes version?
    I thought the riff would be the riff and not interpritational.
    Check my transcription against this non Slash version..
    http://www.youtube.com/watch?v=oFpws1B48Oo
     

Share This Page